gitartab.hu | Kották | Akkordok | Tabulatúrák A legnagyobb magyar gitár kotta oldal

Change language
Értékeld te is:
0

Kispál és a Borz: Menjél messzebb
guitar tab

          
          
          
          
          by Kertész Csaba (Sign, Ketchup)

Menjél messzebb

Basszgitár:

Intro & Interlude:

G-----------------------------
D-----------------------------
A--2-2-2-5-5-5-0-0-0-----2-2-- x2
E--------------------2-2------

G-----------------------------
D-----------------------------
A--2-2-2-3-3-3-0-0-0-----2-2-- x2
E--------------------2-2------

Verse:

G-----------------------------------
D----------5-5-5-5------------------
A--7-7-7-7---------2-2-2-2s8-8-8-8--
E-----------------------------------

Menjél messzebb, találj semmit,
tehát még tovább is menjél,
Mennyit kell még menni,
hogy a neved mondja, valami,
és bár ne volna.
De ha van ördög, az akkor o lesz,
és rúgott gól után is o kezd.
A Bibliát is jobban tudja,
a nokkel is jobban durva.
Álmaid egy pipettából a szemedre ejti,
mino mámor.
S még játszadozol a kilinccsel,
az ajtón túlról hív, csilingel.
Belépsz az utolsó szobába,
villanyt olt, az ajtót zárja.
a padlón ültök egész este,
Inkább o beszél, reggel inkább te.

Ordítod, mikor megtalálnak,
Menjél messzebb! - de csak téged látnak.
+ írj egy javítási javaslatot

Hibajavítás

A javítás folyamata:

Írd le a javaslatodat, és ha megfelelő számú ember hasznosnak találja, e-mail-ben kapsz felkérést, hogy vezesd át a módosításokat.
Ehhez a tabhoz még nincsen hibajavítási javaslat.
- vissza a hibajavítások listájára

Észrevétel

az én javaslatom
Tab-részlet csatolása
Beküldöm! Mégse
Egyéb videók a tabhoz:
Küldj be te is videót: Ha találtál egy jobb videót a youtube-on, másold ide a linkjét és nyomj egy enteret Go!
+ hozzászólok

Kommentek

Ehhez a tabhoz még senki sem írt megjegyzést.
gitartab.hu, - A legnagyobb magyar gitár kotta oldal