gitartab.hu | Kották | Akkordok | Tabulatúrák A legnagyobb magyar gitár kotta oldal

Change language
Értékeld te is:
4.5

Takács Tamás Dirty Blues Band: Pocsolyába léptem
guitar tab

          
          
          
          
          Takács Tamás Dirty Blues Band - Pocsolyába léptem






Az első két versszak kísérete:
  e |---------------|---------------|---------------|---------------|
  H |---------------|---------------|---------------|---------------|
  G |------7---7---7|------7---7---7|--7-7-7-5------|7-5-7-10-------|
  D |------7---7---7|------7---7---7|----------7----|---------------|
  A |3>5-5-5---5---5|3>5-5-5---5---5|---------------|---------------|
  E |---------------|---------------|---------------|---------------|
  e |---------------|---------------|---------------|---------------|
  H |---------------|---------------|----1010--10---|----1010--10---|
  G |------7---7---7|------7---7---7|------------10>7------------10>7
  D |------7---7---7|------7---7---7|---------------|---------------|
  A |3>5-5-5---5---5|3>5-5-5---5---5|---------------|---------------|
  E |---------------|---------------|---------------|---------------|
                                     (* csak az első versszak alatt)
  e |---------------|---------------|---------------|---------------|
  H |8---7---8---9-10----1210--10---|--------7-8-9-6|---------------|
  G |---------------|--------------7|--5-7-7--------|7-7-5----------|
  D |---------------|---------------|---------------|------7--------|
  A |---------------|---------------|---------------|---------------|
  E |---------------|---------------|---------------|---------------|


Befejezés:
  e |---------------|---------------|5-
  H |---------------|---------------|7-
  G |---------------|---------------|7-
  D |---------------|---------------|7-
  A |---------------|----2-4-5------|5-
  E |----2---3---4--|5--------------|5-


Pocsolyába léptem sáros lett az új cipőm
Pocsolyába léptem sáros lett az új cipőm
Hiába keféltem elhagyott a nőm


Hát akkor minden jót, baby, kérlek ne sírjál
Minden jót, baby, kérlek ne sírjál
Sírtál volna akkor, mikor elhagytál


 D                 \                  \   \
Pocsolyába léptem sáros lett az új cipőm
 D                 \                  A   A-A=G#
Pocsolyába léptem sáros lett az új cipőm
 G              A             D  \
Hiába keféltem elhagyott a nőm


Hé, minden jót, baby...


D  \  \  \  \  \  A  \
D  \  G  G=G/H=G/C=G/C#  D  A  D  \
D  \  \  D=D/H=D/C=D/C#  D  \  A  \
D  \  G  G=G/H=G/C=G/C#  D  A  D  \


Hé, minden jót, baby...


D  \  \  D=D/H=D/C=D/C#  D  \  A  \
D  \  G  G=G/H=G/C=G/C#  D  A  D  \
D  \  \  \  \  D=D/H=D/C=D/C#  A  \
D  \  G  G=G/H=G/C=G/C#  D  A  D  \


Hé, pocsolyába léptem sáros lett az új cipőm
Pocsolyába léptem sáros lett az új cipőm
Bizony hiába keféltem elhagyott a nőm, tessék


Hiába mondtam neki, fényesebbre kefélje
Hiába mondtam neki, fényesebbre kefélje
Fényes volt a cipője, azért voltam a nője


Hát akkor minden jót, baby...


Hé, minden jót, baby, kérlek ne sírjál
Minden jót, baby, kérlek ne sírjál
 G                   A|            [Befejezés]
Sírtál volna akkor, mikor elhagytál

+ írj egy javítási javaslatot

Hibajavítás

A javítás folyamata:

Írd le a javaslatodat, és ha megfelelő számú ember hasznosnak találja, e-mail-ben kapsz felkérést, hogy vezesd át a módosításokat.
Ehhez a tabhoz még nincsen hibajavítási javaslat.
- vissza a hibajavítások listájára

Észrevétel

az én javaslatom
Tab-részlet csatolása
Beküldöm! Mégse
Egyéb videók a tabhoz:
Küldj be te is videót: Ha találtál egy jobb videót a youtube-on, másold ide a linkjét és nyomj egy enteret Go!
+ hozzászólok

Kommentek

hamstermajszter mondta 7 év 18 hete
ugye így van abban a sorba: D \ A A-A=G# ez azt jelenti, hogy van 1 ütem D utána a \ jelen azt jelenti még 1 ütem ua-ból aztán jön az A-ból egy ütem majd az A-A=G# tehát fél ütem A aztán 1 negyed ütem A aztán 1 negyed ütem G#
gemiliv mondta 7 év 47 hete
El tudna valaki magyarazni mit jelent a A-A=G# es a G=G/H=G/C=G/C# ? Nem letezik video ahol valaki jatsza a dalt es latszik a gitar is? Koszi
gitartab.hu, - A legnagyobb magyar gitár kotta oldal