gitartab.hu | Kották | Akkordok | Tabulatúrák A legnagyobb magyar gitár kotta oldal

Change language
Értékeld te is:
4.5

Quimby: Most múlik pontosan
guitar tab

          
          
          
          
          ------------------------------------------------------------------------
                  Quimby - Most múlik pontosan
------------------------------------------------------------------------

Tabbed by: Scaffy
e-mail: vadasjanos@gmail.com

tuning: standard

  Intro:

     G                                                 
  E-------------------------------3-------2------------------------|
  B--0-p3-3----3--1--0p1-0----------0-------0-----3-3-1--0p1-0-----|
  G--0----0----------------0----------0--------0--0------------0---|
  D--------------------------0----------0------------------------0-|
  A----------------------------------------------------------------|
  E--3----3--3------------------3----------------------------------|
                                                          Most múlik...
G
pontosan,
        D
Engedem had menjen
Em
Szaladjon kifelé belőlem
          C
Gondoltam egyetlen
             G
nem vagy itt jó helyen
           D
nem vagy való nekem
          C           Am
Villámlik mennydörög
           G          D
ez tényleg szerelem.

            G
Látom, hogy elsuhan
         D
felettem egy madár
Em
tátongó szívében szögesdrót
         C
csőrében szalmaszál
        G
Magamat ringatom,
                 D
még ő landol egy almafán
         C           Am
az Isten kertjében
         G        D
almabort inhalál

H7                        Em
Vágtatnék tovább veled az éjben
   C                   F7
Az álmok foltos indián lován
H7                            Em
Egy táltos szív remeg a konyhakésben
C                       D
Talpam alatt sár és ingovány

      G
Azóta szüntelen
         D
őt látom mindenhol
Em  
Meredten nézek a távolba
         C
otthonom kőpokol
          G
szilánkos mennyország
          D
folyékony torztükör
          C        Am           G          D
szentjánosbogarak      fényében tündököl

Solo:

E----------------------------7-8-----8-7-----7-----7-8-----------7-7-------------------------|
B-----------------7-8----7-8-----8-------8------10-----7--8-8/10-----10-8-10---8-10/12--10---|
G------------7-9-------9-----------9-------7---------------------------------9---------------|
D-----7-9-10---------------------------------------------------------------------------------|
A--10----------------------------------------------------------------------------------------|
E--------------------------------------------------------------------------------------------|

H7                           Em
Egy indián lidérc kísért itt bennem
C                      F7
Szemhéjain rozsdás szemfedő
H7                         Em
A tükrökön túl fenn a fellegekben
C                     D 
Furulyáját elejti egy angyalszárnyú kígyóbűvölő.

Outro
      G                                 C                 G
  E----3-------2---------------------------------0--------3--|
  B------0-------0-----3-3-1--0p1-0------------1---1------0--|
  G--------0--------0--0------------0--------0-------0----0--|
  D----------0------------------------0----2-----------2--0--|
  A--------------------------------------3----------------2--|
  E--3----------------------------------------------------3--|

+ írj egy javítási javaslatot

Hibajavítás

A javítás folyamata:

Írd le a javaslatodat, és ha megfelelő számú ember hasznosnak találja, e-mail-ben kapsz felkérést, hogy vezesd át a módosításokat.
zooli12 javaslata:
sziasztok szerintem refrennél a vágtaték h a tovább az  h7 az álmok foltos az jo és szerintem a lován az cm6/f 
Szerintem is így helyes! Nem értek vele egyet.
még 8 szavazat kell az elfogadáshoz
fretmaster javaslata:
A szóló nem teljesen pontos.Itt van kicsinosítva,ritmikailag is kb. felírva.A végén a kis ráütésesdit (persze nem a trombitát ütjük;) )érdemes 1-2x meghallgatni,utána menni fog! Minden jót! :)
E------------------------------------7--8--------8-7---------7------7--8------------7-787--------------------7--------|
B---------------------7--8-----7--8---------8---------8-------- 10--------7---8-8-10------10-8-10-----8---10-—-10~~---|
G---------------7--9--------9-----------------9-----------7----------------------------------------9------------------|
D-----7—-9--10--------------------------------------------------------------------------------------------------------|
A-10------------------------------------------------------------------------------------------------------------------|
E---------------------------------------------------------------------------------------------------------------------|
Szerintem is így helyes! Nem értek vele egyet.
még 10 szavazat kell az elfogadáshoz
- vissza a hibajavítások listájára

Észrevétel

az én javaslatom
Tab-részlet csatolása
Beküldöm! Mégse
Egyéb videók a tabhoz:
Küldj be te is videót: Ha találtál egy jobb videót a youtube-on, másold ide a linkjét és nyomj egy enteret Go!
+ hozzászólok

Kommentek

iiibs mondta 8 év 12 hete
H7 helyett H
gitartab.hu, - A legnagyobb magyar gitár kotta oldal