gitartab.hu | Kották | Akkordok | Tabulatúrák A legnagyobb magyar gitár kotta oldal

Change language
Értékeld te is:
0

Pokolgép: A jel
guitar tab

          
          
          
          
          ##############################
#                            #
# Pokolgep - A jel           #
#                            #
##############################

 E|------------------------|--------------------------|
 B|------------------------|--------------------------|
 G|----------------5-5-----|--5--4--5--7-7--10-10--9--|
 D|--7--5--7--7-7--3-3--5--|--3--2--3--5-5--8--8---7--| X 6
 A|--5--3--5--5-5-------3--|--------------------------|
 E|------------------------|--------------------------|

 E|------------------------|--------------------------------|
 B|------------------------|--------------------------------|
 G|----------------5-5-----|--5--4--5--5-5-5-5-5-5-5-5-5-7--|
 D|--7--5--7--7-7--3-3--5--|--3--2--3--3-3-3-3-3-3-3-3-3-5--| X 1
 A|--5--3--5--5-5-------3--|--------------------------------|
 E|------------------------|--------------------------------|

 E|--------------------------------|----------------------------|
 B|--------------------------------|----------------------------|
 G|--2--4--5--7--5--2-2--5-5-5--4--|--2--4--5--9-9--7--5--4-----|
 D|--0--2--3--5--3--0-0--3-3-3--2--|--0--2--3--7-7--5--3--2--5--| X 4
 A|--------------------------------|-------------------------3--|
 E|--------------------------------|----------------------------|

 E|------------------------------|----------------------------------|
 B|------------------------------|----------------------------------|
 G|------------------------------|----------------------------------|
 D|--5--7--5--7-7--5--7--5--7-7--|------------------------10-10--9--| X 4
 A|--3--5--3--5-5--3--5--3--5-5--|--7--8--7--8-8--8--7-7--8--8---7--|
 E|------------------------------|--5--6--5--6-6--6--5-5------------|

 E|------------------------|--------------------------|
 B|------------------------|--------------------------|
 G|----------------5-5-----|--5--4--5--7-7--10-10--9--|
 D|--7--5--7--7-7--3-3--5--|--3--2--3--5-5--8--8---7--| X 3
 A|--5--3--5--5-5-------3--|--------------------------|
 E|------------------------|--------------------------|

 E|------------------------|--------------------------------|
 B|------------------------|--------------------------------|
 G|----------------5-5-----|--5--4--5--5-5-5-5-5-5-5-5-5-7--|
 D|--7--5--7--7-7--3-3--5--|--3--2--3--3-3-3-3-3-3-3-3-3-5--| X 1
 A|--5--3--5--5-5-------3--|--------------------------------|
 E|------------------------|--------------------------------|

 E|--------------------------------|----------------------------|
 B|--------------------------------|----------------------------|
 G|--2--4--5--7--5--2-2--5-5-5--4--|--2--4--5--9-9--7--5--4-----|
 D|--0--2--3--5--3--0-0--3-3-3--2--|--0--2--3--7-7--5--3--2--5--| X 4
 A|--------------------------------|-------------------------3--|
 E|--------------------------------|----------------------------|

 E|----------------------------------------------|
 B|----------------------------------------------|
 G|----------------------------------------------|
 D|--9-9-9-9--10-10-10-10--12-12-12-12--7-7-7-7--| X 4
 A|--7-7-7-7--8--8--8--8---10-10-10-10--5-5-5-5--|
 E|----------------------------------------------|

 E|--------------------------|
 B|--------------------------|
 G|--------------------------|
 D|--9--10--12-12-12--7-7-7--| X 4
 A|--7--8---10-10-10--5-5-5--|
 E|--------------------------|

 E|-------------|
 B|-------------|
 G|-------------|
 D|--5--7--9-9--| X 1
 A|--2--5--7-7--|
 E|-------------|

+ írj egy javítási javaslatot

Hibajavítás

A javítás folyamata:

Írd le a javaslatodat, és ha megfelelő számú ember hasznosnak találja, e-mail-ben kapsz felkérést, hogy vezesd át a módosításokat.
Ehhez a tabhoz még nincsen hibajavítási javaslat.
- vissza a hibajavítások listájára

Észrevétel

az én javaslatom
Tab-részlet csatolása
Beküldöm! Mégse
Egyéb videók a tabhoz:
Küldj be te is videót: Ha találtál egy jobb videót a youtube-on, másold ide a linkjét és nyomj egy enteret Go!
+ hozzászólok

Kommentek

Ehhez a tabhoz még senki sem írt megjegyzést.
gitartab.hu, - A legnagyobb magyar gitár kotta oldal