gitartab.hu | Kották | Akkordok | Tabulatúrák A legnagyobb magyar gitár kotta oldal

Change language
Értékeld te is:
3

Guns n Roses: Knockin On Heavens Door
guitar tab

          
          
          
          
          Knocking On Heavens Door Live
Guns N'Roses

|------------------------0-0---h3-(3p0)-----3--------0h2--------|



|---------------/5-------1-0h1----(0-0)-------3---------3-------|



|----------------/7-----h2----------------------0---------5-5-5-|



|-----/5----------/7----h2------------------------0-0-----5-5-5-|



|------/5-----5----(5)------------------------------------3-3-3-|



|--3----(3)------------------------------3-3--------------------|



|-----3---------2-----0-0---h3-(3p0)--3-----2-----0-|



|-----3---------3-----1-0h1----(0-0)--3-----3-----1-|



|-----0---------2-----2---------------0-----2-----0-|



|-----0-----0-0-0-----2---------------0-----------2-| 2 times



|-----2-------------------------------2-----------3-|



|-3-3-3-------------------------------3-----------0-|



--------|



--------|



--------|



--------|



--------|



 G    D                 Am
MAMA TAKE THIS BADGE FROM ME
  G    D           C
I CAN'T USE IT ANYMORE
  G    D                      Am
IT'S GETTING DARK TOO DARK TO SEE (Fill 1)
  G    D                            C
FEELS LIKE I'M KNOCKING ON HEAVEN'S DOOR

CHORUS (ith light disorted guitar)

  G    D                        Am
KNOCK KNOCK KNOCKING ON HEAVENS DOOR
  G    D                        C
KNOCK KNOCK KNOCKING ON HEAVENS DOOR
  G    D                        Am
KNOCK KNOCK KNOCKING ON HEAVENS DOOR
  G    D                        C
KNOCK KNOCK KNOCKING ON HEAVENS DOOR

THE "Uhhh Part" 2 time

VERSE 2:
MAMA PUT MY GUNS (IN)TO GROUND
I CAN'T SHOOT THEM ANYMORE
THAT DARK BLACK CLOUD IS COMING DOWN
IT FEELS LIKE I'M KNOCKING ON HEAVENS DOOR

CHORUS
KNOCK KNOCK KNOCKING ON HEAVENS DOOR
KNOCK KNOCK KNOCKING ON HEAVENS DOOR (Fill 1)
KNOCK KNOCK KNOCKING ON HEAVENS DOOR
KNOCK KNOCK KNOCKING ON HEAVENS DOOR

Solo
1 times the Riff

KNOCK KNOCK KNOCKING ON HEAVENS DOOR(C'mon People)
KNOCK KNOCK KNOCKING ON HEAVENS DOOR
KNOCK KNOCK KNOCKING ON HEAVENS DOOR(we gonna keep this one follow me)
KNOCK KNOCK KNOCKING ON HEAVENS DOOR(allright now)
KNOCK KNOCK KNOCKING ON HEAVENS DOOR
KNOCK KNOCK KNOCKING ON HEAVENS DOOR(you gonna follow me with this one people?)
KNOCK KNOCK KNOCKING ON HEAVENS DOOR
KNOCK KNOCK KNOCKING ON HEAVENS DOOR
KNOCK KNOCK KNOCKING ON HEAVENS DOOR(allright)
KNOCK KNOCK KNOCKING ON HEAVENS DOOR(yeah)
KNOCK KNOCK KNOCKING ON HEAVENS DOOR
KNOCK KNOCK KNOCKING ON HEAVENS DOOR
KNOCK KNOCK KNOCKING ON HEAVENS DOOR
KNOCK KNOCK KNOCKING ON HEAVENS DOOR

"Uhh Part"
Outro (same as Intro)
+ írj egy javítási javaslatot

Hibajavítás

A javítás folyamata:

Írd le a javaslatodat, és ha megfelelő számú ember hasznosnak találja, e-mail-ben kapsz felkérést, hogy vezesd át a módosításokat.
Ehhez a tabhoz még nincsen hibajavítási javaslat.
- vissza a hibajavítások listájára

Észrevétel

az én javaslatom
Tab-részlet csatolása
Beküldöm! Mégse
Egyéb videók a tabhoz:
Küldj be te is videót: Ha találtál egy jobb videót a youtube-on, másold ide a linkjét és nyomj egy enteret Go!
+ hozzászólok

Kommentek

fafa1986 mondta 8 év 4 hete
Oké, hogy szóló rész, de melyik húron? (Na azért rájöttem ám, de akkor is.)
gitartab.hu, - A legnagyobb magyar gitár kotta oldal