gitartab.hu | Kották | Akkordok | Tabulatúrák A legnagyobb magyar gitár kotta oldal

Change language
Értékeld te is:
0

Alvin és a Mókusok: Romantika
guitar tab

          
          
          
          
          Alvin és a Mókusok - Romantika






A versszakok kíséreteben az első négy ütem:
     C     C4        C     C4        Am    Fmaj7     Am    Fmaj7
  e |---------------|---------------|---------------|---------------|
  H |---------------|---------------|---------------|---------------|
  G |0-0-0-0-0-0-0-0|0-0-0-0-0-0-0-0|2-2-2-2-2-2-2-2|2-2-2-2-2-2-2-2|
  D |2-2-2-3-3-3-3-3|2-2-2-3-3-3-3-3|2-2-2-3-3-3-3-3|2-2-2-3-3-3-3-3|
  A |3-3-3-3-3-3-3-3|3-3-3-3-3-3-3-3|0-0-0-0-0-0-0-0|0-0-0-0-0-0-0-0|
  E |---------------|---------------|---------------|---------------|
     G                               F
  e |---------------|---------------|---------------|---------------|
  H |---------------|---------------|---------------|---------------|
  G |---------------|---------------|2-----2-----2--|--2-2-2-2-2-2-2|
  D |5-----5-----5--|--5---5---5-5-5|3-----3-----3--|--2-2-2-2-2-2-2|
  A |5-----5-----5--|--5---5---5-5-5|3-----3-----3--|--3-3-3-3-3-3-3|
  E |3-----3-----3--|--3---3---3-3-3|---------------|---------------|


C        \                  Am              \
Álmomban együtt voltam egy virágos réten veled
 G            \             F           \
Két kezemben ott tartottam jéghideg fejed
C         \                 Am             \
Mellettem ott volt a fűben mind a két szemed
 G                    \         F            \
Mért vágtam le? Most foghatnám bársonyos kezed


Levágtam a lábaid is a combod nyaktövénél
Felvágtam a hasfalad a nadrágszíjad tövénél
A rét közebén kifordult csillogó beled
Megérezhették, mert rögtön rászálltak a legyek


  C                \                   G                    \
Szaditsa vagy, de nem mondok ki, csak suttogod hogy meg ne halljam
  F                  \             G                      \
Nem mondod ki, de a lelked mélyén ott van az a bizonyos hajlam
F           G          C           Am
De ez csak álom volt, és nem valóság
F           G            C            Am
Azt hiszem meg is tenném, ez az igazság
F         G|
Számomra ez a boldogság


C  \  Am  \  G  \  F  \
C  \  Am  \  G  \  F  \


Kéthetes hullaszagodtól illatos lett a rét
Pedig a tetemed csak tegnap oszlott szét
De én két kezemben ott tartottam jéghideg fejed
Vigyázok majd rád, ott maradok veled


Szaditsa vagy...


C  \  Am  \  G  \  F  \
C  \  Am  \  G  \  F  \


Szaditsa vagy, de nem mondok ki, csak suttogod hogy meg ne halljam
Nem mondod ki, de a lelked mélyén ott van az a bizonyos hajlam
De ez csak álom volt, és nem valóság
Azt hiszem meg is tenném, ez az igazság
Számomra ez...


De ez csak álom volt, és nem valóság
Azt hiszem meg is tenném, ez az igazság
Számomra ez a boldogság

+ írj egy javítási javaslatot

Hibajavítás

A javítás folyamata:

Írd le a javaslatodat, és ha megfelelő számú ember hasznosnak találja, e-mail-ben kapsz felkérést, hogy vezesd át a módosításokat.
Ehhez a tabhoz még nincsen hibajavítási javaslat.
- vissza a hibajavítások listájára

Észrevétel

az én javaslatom
Tab-részlet csatolása
Beküldöm! Mégse
Egyéb videók a tabhoz:
Küldj be te is videót: Ha találtál egy jobb videót a youtube-on, másold ide a linkjét és nyomj egy enteret Go!
+ hozzászólok

Kommentek

Ehhez a tabhoz még senki sem írt megjegyzést.
gitartab.hu, - A legnagyobb magyar gitár kotta oldal